[Main chords throughout]

Gmaj13 / C / D / G / B / Em


[Intro]

e|----------------x-----------------x----------------------------------------|
B|---7----8---8-8-x-----------------x----------------------------------------|
G|---7----7---9-9-x---9---9---11-11-x----------------------------------------| (x2)
D|---9----9---9-9-x---10--10--12-12-x----------------------------------------|
A|-10--10-----7-7-x---10--10--12-12-x----------------------------------------|
E|----------------x-8----8----10-10-x----------------------------------------|


[Verse]

e|----------------x------------------------x---------------------------------|
B|---7----8---8-8-x------------------------x---------------------------------|
G|---7----7---9-9-x---9---9---------11--11-x---------------------------------| (x2)
D|---9----9---9-9-x---10--10--------12--12-x---------------------------------|
A|-10--10-----7-7-x---10--10--------12--12-x---------------------------------|
E|----------------x-8----8---8/10-10--10---x---------------------------------|


[Pre chorus]

e|---------------------------------------------------------------------------|
B|---------------------------------------------------------------------------|
G|----4---4---8---8---9----9----11----11----4---4---8---8---9----9----11-----|
D|----5---5---9---9---10---10---12----12----5---5---9---9---10---10---12-----|
A|----5---5---9---9---10---10---12----12----5---5---9---9---10---10---12-----|
E|-10\3-3---3/7-7---7/8--8----8/10-10----10/3-3---3/7-7---7/8--8----8/10-----|

(x2)
e|---------------------------------------------------------------------------|
B|---------------------------------------------------------------------------|
G|----11---------------------------------------------------------------------|
D|----12---------------------------------------------------------------------|
A|----12---------------------------------------------------------------------|
E|-10------------------------------------------------------------------------|
[Chorus] e|---------------------------------------------------------------------------|
B|----0---3-0--0---3-0--1---3-1--3---3--------------0---3-0--1---3-1-3--3----|
G|----0---0----0---0----0---0----2---2----0----3-0--0---0----0---0---2--2----|
D|----0---0----2---2----2---2----0-0------0----0----2---2----2---2---0-0-----|
A|-------------2-2-----3-3----------------0----0----2-2------3-3-------------|
E|-10\3-3-------------------------------0-3-3-----------------------------0--|

e|---------------------------------------------------------------------------|
B|-0---0h3-0--0---0h3-0--1---1h3-1--3---3---0---0h3-0--0---0h3-0--1---1h3-1--|
G|-0---0------0---0------0---0------2---2---0---0------0---0------0---0------|
D|-0---0------2---0------2---2------0-0-----0---0------2---2------2---2------|
A|------------2-2--------3-3---------------------------2-2--------3-3--------|
E|-3-3------------------------------------0-3-3------------------------------|

e|---------------------------------------------------------------------------|
B|-3---3---------------------------------------------------------------------|
G|-2---2---------------------------------------------------------------------|
D|-0-0-----------------------------------------------------------------------|
A|---------------------------------------------------------------------------|
E|-------0-------------------------------------------------------------------|

[Chorus end] (only played just this once throughout the whole song) e|----------------x----------------------------------------------------------|
B|---7----8---8-8-x----------------------------------------------------------|
G|---7----7---9-9-x-------9----9----9----11---11-----------------------------| (x2)
D|---9----9---9-9-x-------10---10---10---12---12-----------------------------|
A|-10--10-----7-7-x--0----10---10---10---12---12-----0-----------------------|
E|----------------x---7--8----8----8----10---10--10\7------------------------|
(repeat verse, pre chorus and chorus) then play: [Bridge] e|---------------------------------------------------------------------------|
B|-3----3----3---3----3---3---3---3--1---1---3---3----3----3----3---3--------|
G|-0----0----2---2----0---0---0---0--0---0---0---0----0----0----2---2--------|
D|-2----2----0-0------0---0---2---2--2---2---4---4----2----2----0-0----------|
A|-2--2---2--------------------------3-3---3/5-5---0--2--2---2---------------|
E|-----------------0--3-3-2-2-0-0--0----------------------------------0------|

e|-------------------------------------2----3--t7p5--------------------------|
B|-3---3---3---3---1---1----3---3-----3-3---2--------------------------------|
G|-0---0---0---0---0---0----0---0----2---2-2---------------------------------|
D|-0---0---2---2---2---2----2---2---0-----0----------------------------------|
A|-----------------3-3---3--2-2---2------------------------------------------|
E|-3-3-2-2-0-0--0------------------------------------------------------------|
[Outro] e|----------------x-----------------x---------------x------------------------|
B|---7----8---8-8-x-----------------x---7---8---8-8-x------------------------|
G|---7----7---9-9-x---9---9---11-11-x---7---7---8-9-x-------9----9----9------|
D|---9----9---9-9-x---10--10--12-12-x---9---9---9-9-x-------10---10---10-----|
A|-10--10-----7-7-x---10--10--12-12-x-10--10----7-7-x-0-----10---10---10-----|
E|----------------x-8----8----10-10-x---------------x--7--8----8----8----10--|

e|---------------------------------------------------------------------------|
B|-------------------7----8---8-8-x------------------------------------------|
G|-11----11----------7----7---9-9-x-------9----9----9----11----11------------|
D|-12----12----------9----9---9-9-x-------10---10---10---12----12------------|
A|-12----12-----0--10--10-----7-7-x-0-----10---10---10---12----12-----0------|
E|----10----10\7------------------x--7--8----8----8----10---10----10\7-------|

e|---------------------------------------------------------------------------|
B|---7---8---8---8---8--------------------------------------7---8---8---8----|
G|---7---7---7---9---9-------9---9---9----11---11-----------9---9---9---9----|
D|---9---9---9---9---9-------10--10--10---12---12-----------9---9---9---9----|
A|-10--10--10--7---7---0-----10--10--10---12---12-------0-10--10--10---7-----|
E|-----------------------7--8---8---8---10---10----10\7----------------------|

e|----------------------------------------------9---9------------------------|
B|---8-----------------------------------------8----8------------------------|
G|---9------9---9---9---11---11---------------7-----7------------------------|
D|---9------10--10--10--12---12--------------9------9------------------------|
A|-7---0----10--10--10--12---12------bz0---10-------10-----------------------|
E|------7--8---8---8---10---10--10\7~----------------------------------------|


************************************
| x Dead note
| bz Buzz
| p Pull off
| h Hammer-on
| t Tapping
| / Slide up
| \ Slide down


************************************